ISO-10303-21;
HEADER;
FILE_DESCRIPTION (( 'STEP AP203' ),
    '1' );
FILE_NAME ('Q-ZDWWP-R41-20-1064-SHM.STEP',
    '2020-12-22T09:02:23',
    ( '' ),
    ( '' ),
    'SwSTEP 2.0',
    'SolidWorks 2020',
    '' );
FILE_SCHEMA (( 'CONFIG_CONTROL_DESIGN' ));
ENDSEC;

DATA;
#1 = DIRECTION ( 'NONE',  ( 1.000000000000000000, 0.000000000000000000, 0.000000000000000000 ) ) ;
#2 = VERTEX_POINT ( 'NONE', #66 ) ;
#3 = AXIS2_PLACEMENT_3D ( 'NONE', #329, #52, #304 ) ;
#4 = DIRECTION ( 'NONE',  ( 0.000000000000000000, 0.000000000000000000, -1.000000000000000000 ) ) ;
#5 = DIRECTION ( 'NONE',  ( 0.000000000000000000, 0.000000000000000000, 1.000000000000000000 ) ) ;
#6 = PERSON_AND_ORGANIZATION_ROLE ( 'design_owner' ) ;
#7 = CIRCLE ( 'NONE', #20, 12.69999999999999929 ) ;
#8 = SECURITY_CLASSIFICATION_LEVEL ( 'unclassified' ) ;
#9 = AXIS2_PLACEMENT_3D ( 'NONE', #32, #149, #120 ) ;
#10 = DIRECTION ( 'NONE',  ( -1.000000000000000000, -0.000000000000000000, -0.000000000000000000 ) ) ;
#11 = DATE_TIME_ROLE ( 'classification_date' ) ;
#12 = MECHANICAL_CONTEXT ( 'NONE', #273, 'mechanical' ) ;
#13 = CARTESIAN_POINT ( 'NONE',  ( -3.000000000000000444, 0.000000000000000000, 0.000000000000000000 ) ) ;
#14 = APPROVAL_PERSON_ORGANIZATION ( #30, #105, #90 ) ;
#15 = CARTESIAN_POINT ( 'NONE',  ( -2.500000000000000444, 0.000000000000000000, 0.000000000000000000 ) ) ;
#16 = CARTESIAN_POINT ( 'NONE',  ( 2.500000000000000888, 0.000000000000000000, 0.000000000000000000 ) ) ;
#17 = DIRECTION ( 'NONE',  ( -1.000000000000000000, -0.000000000000000000, -0.000000000000000000 ) ) ;
#18 = DIRECTION ( 'NONE',  ( -1.000000000000000000, -0.000000000000000000, -0.000000000000000000 ) ) ;
#19 = CARTESIAN_POINT ( 'NONE',  ( 2.999999999999999112, 12.69999999999999929, 0.000000000000000000 ) ) ;
#20 = AXIS2_PLACEMENT_3D ( 'NONE', #45, #276, #332 ) ;
#21 = ORIENTED_EDGE ( 'NONE', *, *, #241, .F. ) ;
#22 = CIRCLE ( 'NONE', #83, 12.69999999999999929 ) ;
#23 = FACE_OUTER_BOUND ( 'NONE', #286, .T. ) ;
#24 = VERTEX_POINT ( 'NONE', #259 ) ;
#25 = CC_DESIGN_PERSON_AND_ORGANIZATION_ASSIGNMENT ( #85, #188, ( #201 ) ) ;
#26 = CARTESIAN_POINT ( 'NONE',  ( -3.000000000000000000, 0.000000000000000000, 0.000000000000000000 ) ) ;
#27 = ORIENTED_EDGE ( 'NONE', *, *, #62, .F. ) ;
#28 = AXIS2_PLACEMENT_3D ( 'NONE', #19, #206, #108 ) ;
#29 = VERTEX_POINT ( 'NONE', #60 ) ;
#30 = PERSON_AND_ORGANIZATION ( #230, #169 ) ;
#31 = DIRECTION ( 'NONE',  ( 0.000000000000000000, 0.000000000000000000, 1.000000000000000000 ) ) ;
#32 = CARTESIAN_POINT ( 'NONE',  ( -2.500000000000000444, 0.000000000000000000, 0.000000000000000000 ) ) ;
#33 = ADVANCED_FACE ( 'NONE', ( #86 ), #61, .T. ) ;
#34 = CALENDAR_DATE ( 2020, 22, 12 ) ;
#35 = VERTEX_POINT ( 'NONE', #118 ) ;
#36 = DIRECTION ( 'NONE',  ( -1.000000000000000000, -0.000000000000000000, -0.000000000000000000 ) ) ;
#37 = EDGE_CURVE ( 'NONE', #24, #302, #97, .T. ) ;
#38 = DIRECTION ( 'NONE',  ( -1.000000000000000000, -0.000000000000000000, -0.000000000000000000 ) ) ;
#39 = AXIS2_PLACEMENT_3D ( 'NONE', #284, #265, #31 ) ;
#40 = EDGE_CURVE ( 'NONE', #335, #279, #147, .T. ) ;
#41 = DIRECTION ( 'NONE',  ( 0.000000000000000000, 0.000000000000000000, -1.000000000000000000 ) ) ;
#42 = EDGE_CURVE ( 'NONE', #277, #35, #301, .T. ) ;
#43 = ADVANCED_FACE ( 'NONE', ( #216 ), #170, .F. ) ;
#44 = FACE_OUTER_BOUND ( 'NONE', #77, .T. ) ;
#45 = CARTESIAN_POINT ( 'NONE',  ( 3.000000000000000000, 0.000000000000000000, 0.000000000000000000 ) ) ;
#46 = APPROVAL ( #87, 'UNSPECIFIED' ) ;
#47 = CARTESIAN_POINT ( 'NONE',  ( 2.999999999999999112, 1.224646799147353256E-15, -10.00000000000000000 ) ) ;
#48 = EDGE_LOOP ( 'NONE', ( #219, #132, #318, #190 ) ) ;
#49 =( NAMED_UNIT ( * ) PLANE_ANGLE_UNIT ( ) SI_UNIT ( $, .RADIAN. ) );
#50 = CIRCLE ( 'NONE', #3, 10.00000000000000000 ) ;
#51 = AXIS2_PLACEMENT_3D ( 'NONE', #63, #266, #233 ) ;
#52 = DIRECTION ( 'NONE',  ( -1.000000000000000000, -0.000000000000000000, -0.000000000000000000 ) ) ;
#53 = DIRECTION ( 'NONE',  ( -1.000000000000000000, -0.000000000000000000, -0.000000000000000000 ) ) ;
#54 = COORDINATED_UNIVERSAL_TIME_OFFSET ( 8, 0, .AHEAD. ) ;
#55 = LOCAL_TIME ( 17, 2, 23.00000000000000000, #164 ) ;
#56 = EDGE_LOOP ( 'NONE', ( #278, #102, #187, #303 ) ) ;
#57 = CIRCLE ( 'NONE', #235, 12.69999999999999929 ) ;
#58 = CLOSED_SHELL ( 'NONE', ( #249, #131, #43, #261, #256, #234, #197, #33, #268, #323 ) ) ;
#59 = APPROVAL_STATUS ( 'not_yet_approved' ) ;
#60 = CARTESIAN_POINT ( 'NONE',  ( -2.500000000000000444, 1.224646799147353256E-15, -10.00000000000000000 ) ) ;
#61 = CYLINDRICAL_SURFACE ( 'NONE', #133, 12.69999999999999929 ) ;
#62 = EDGE_CURVE ( 'NONE', #239, #29, #84, .T. ) ;
#63 = CARTESIAN_POINT ( 'NONE',  ( -1.614212418857619014, 0.000000000000000000, 0.000000000000000000 ) ) ;
#64 = LOCAL_TIME ( 17, 2, 23.00000000000000000, #54 ) ;
#65 = ORIENTED_EDGE ( 'NONE', *, *, #311, .T. ) ;
#66 = CARTESIAN_POINT ( 'NONE',  ( 2.999999999999999112, 0.000000000000000000, 10.00000000000000000 ) ) ;
#67 = CARTESIAN_POINT ( 'NONE',  ( 3.000000000000000000, 0.000000000000000000, 0.000000000000000000 ) ) ;
#68 = PERSON_AND_ORGANIZATION ( #230, #169 ) ;
#69 = LINE ( 'NONE', #175, #312 ) ;
#70 = DIRECTION ( 'NONE',  ( -1.000000000000000000, -0.000000000000000000, -0.000000000000000000 ) ) ;
#71 = DIRECTION ( 'NONE',  ( -1.000000000000000000, -0.000000000000000000, -0.000000000000000000 ) ) ;
#72 = DIRECTION ( 'NONE',  ( -1.000000000000000000, -0.000000000000000000, -0.000000000000000000 ) ) ;
#73 = PRODUCT_RELATED_PRODUCT_CATEGORY ( 'detail', '', ( #182 ) ) ;
#74 = FACE_BOUND ( 'NONE', #140, .T. ) ;
#75 = EDGE_CURVE ( 'NONE', #308, #279, #22, .T. ) ;
#76 = CYLINDRICAL_SURFACE ( 'NONE', #257, 12.69999999999999929 ) ;
#77 = EDGE_LOOP ( 'NONE', ( #282, #162, #218, #171 ) ) ;
#78 = AXIS2_PLACEMENT_3D ( 'NONE', #122, #220, #324 ) ;
#79 = DATE_AND_TIME ( #272, #55 ) ;
#80 = DATE_AND_TIME ( #309, #287 ) ;
#81 = CARTESIAN_POINT ( 'NONE',  ( -1.614212418857619014, 0.000000000000000000, 0.000000000000000000 ) ) ;
#82 = SHAPE_DEFINITION_REPRESENTATION ( #158, #305 ) ;
#83 = AXIS2_PLACEMENT_3D ( 'NONE', #222, #71, #242 ) ;
#84 = CIRCLE ( 'NONE', #9, 10.00000000000000000 ) ;
#85 = PERSON_AND_ORGANIZATION ( #230, #169 ) ;
#86 = FACE_OUTER_BOUND ( 'NONE', #229, .T. ) ;
#87 = APPROVAL_STATUS ( 'not_yet_approved' ) ;
#88 = ORIENTED_EDGE ( 'NONE', *, *, #42, .F. ) ;
#89 = APPROVAL_ROLE ( '' ) ;
#90 = APPROVAL_ROLE ( '' ) ;
#91 = ORIENTED_EDGE ( 'NONE', *, *, #40, .T. ) ;
#92 = VECTOR ( 'NONE', #36, 1000.000000000000000 ) ;
#93 = CC_DESIGN_SECURITY_CLASSIFICATION ( #100, ( #201 ) ) ;
#94 = ORIENTED_EDGE ( 'NONE', *, *, #192, .F. ) ;
#95 = DIRECTION ( 'NONE',  ( 0.000000000000000000, 0.000000000000000000, -1.000000000000000000 ) ) ;
#96 = DIRECTION ( 'NONE',  ( -1.000000000000000000, -0.000000000000000000, -0.000000000000000000 ) ) ;
#97 = CIRCLE ( 'NONE', #39, 10.00000000000000000 ) ;
#98 = CARTESIAN_POINT ( 'NONE',  ( 3.000000000000000000, 1.555301434917138433E-15, -12.69999999999999929 ) ) ;
#99 = LINE ( 'NONE', #270, #130 ) ;
#100 = SECURITY_CLASSIFICATION ( '', '', #8 ) ;
#101 = DIRECTION ( 'NONE',  ( -1.000000000000000000, -0.000000000000000000, -0.000000000000000000 ) ) ;
#102 = ORIENTED_EDGE ( 'NONE', *, *, #241, .T. ) ;
#103 = AXIS2_PLACEMENT_3D ( 'NONE', #13, #10, #5 ) ;
#104 = ORIENTED_EDGE ( 'NONE', *, *, #75, .F. ) ;
#105 = APPROVAL ( #59, 'UNSPECIFIED' ) ;
#106 = CARTESIAN_POINT ( 'NONE',  ( -1.614212418857619014, 0.000000000000000000, 10.00000000000000000 ) ) ;
#107 = ORIENTED_EDGE ( 'NONE', *, *, #247, .T. ) ;
#108 = DIRECTION ( 'NONE',  ( -0.000000000000000000, 0.000000000000000000, 1.000000000000000000 ) ) ;
#109 = APPROVAL_PERSON_ORGANIZATION ( #258, #119, #114 ) ;
#110 = ORIENTED_EDGE ( 'NONE', *, *, #75, .T. ) ;
#111 = AXIS2_PLACEMENT_3D ( 'NONE', #290, #245, #128 ) ;
#112 = EDGE_CURVE ( 'NONE', #35, #277, #148, .T. ) ;
#113 = CARTESIAN_POINT ( 'NONE',  ( -1.614212418857619014, 0.000000000000000000, 0.000000000000000000 ) ) ;
#114 = APPROVAL_ROLE ( '' ) ;
#115 = AXIS2_PLACEMENT_3D ( 'NONE', #243, #328, #41 ) ;
#116 = ORIENTED_EDGE ( 'NONE', *, *, #316, .T. ) ;
#117 = PERSON_AND_ORGANIZATION ( #230, #169 ) ;
#118 = CARTESIAN_POINT ( 'NONE',  ( -3.000000000000000444, 0.000000000000000000, 10.00000000000000000 ) ) ;
#119 = APPROVAL ( #141, 'UNSPECIFIED' ) ;
#120 = DIRECTION ( 'NONE',  ( 0.000000000000000000, 0.000000000000000000, -1.000000000000000000 ) ) ;
#121 = VECTOR ( 'NONE', #101, 1000.000000000000000 ) ;
#122 = CARTESIAN_POINT ( 'NONE',  ( -3.000000000000000444, 0.000000000000000000, 0.000000000000000000 ) ) ;
#123 = DIRECTION ( 'NONE',  ( -1.000000000000000000, -0.000000000000000000, -0.000000000000000000 ) ) ;
#124 = CARTESIAN_POINT ( 'NONE',  ( 0.000000000000000000, 0.000000000000000000, 0.000000000000000000 ) ) ;
#125 = CARTESIAN_POINT ( 'NONE',  ( 2.999999999999999112, 0.000000000000000000, 0.000000000000000000 ) ) ;
#126 = AXIS2_PLACEMENT_3D ( 'NONE', #67, #327, #224 ) ;
#127 = DIRECTION ( 'NONE',  ( 0.000000000000000000, 0.000000000000000000, 1.000000000000000000 ) ) ;
#128 = DIRECTION ( 'NONE',  ( 0.000000000000000000, 0.000000000000000000, 1.000000000000000000 ) ) ;
#129 = DIRECTION ( 'NONE',  ( 0.000000000000000000, 0.000000000000000000, 1.000000000000000000 ) ) ;
#130 = VECTOR ( 'NONE', #38, 1000.000000000000000 ) ;
#131 = ADVANCED_FACE ( 'NONE', ( #156 ), #248, .F. ) ;
#132 = ORIENTED_EDGE ( 'NONE', *, *, #231, .T. ) ;
#133 = AXIS2_PLACEMENT_3D ( 'NONE', #81, #167, #262 ) ;
#134 =( NAMED_UNIT ( * ) SI_UNIT ( $, .STERADIAN. ) SOLID_ANGLE_UNIT ( ) );
#135 = ORIENTED_EDGE ( 'NONE', *, *, #192, .T. ) ;
#136 = PLANE ( 'NONE',  #319 ) ;
#137 = ORIENTED_EDGE ( 'NONE', *, *, #112, .F. ) ;
#138 = DIRECTION ( 'NONE',  ( 0.000000000000000000, 0.000000000000000000, 1.000000000000000000 ) ) ;
#139 = CIRCLE ( 'NONE', #292, 10.00000000000000000 ) ;
#140 = EDGE_LOOP ( 'NONE', ( #65, #185 ) ) ;
#141 = APPROVAL_STATUS ( 'not_yet_approved' ) ;
#142 = DIRECTION ( 'NONE',  ( -1.000000000000000000, -0.000000000000000000, -0.000000000000000000 ) ) ;
#143 = ORIENTED_EDGE ( 'NONE', *, *, #311, .F. ) ;
#144 = PERSON_AND_ORGANIZATION_ROLE ( 'design_supplier' ) ;
#145 =( GEOMETRIC_REPRESENTATION_CONTEXT ( 3 ) GLOBAL_UNCERTAINTY_ASSIGNED_CONTEXT ( ( #263 ) ) GLOBAL_UNIT_ASSIGNED_CONTEXT ( ( #204, #49, #134 ) ) REPRESENTATION_CONTEXT ( 'NONE', 'WORKASPACE' ) );
#146 = CC_DESIGN_DATE_AND_TIME_ASSIGNMENT ( #213, #307, ( #166 ) ) ;
#147 = LINE ( 'NONE', #236, #260 ) ;
#148 = CIRCLE ( 'NONE', #78, 10.00000000000000000 ) ;
#149 = DIRECTION ( 'NONE',  ( 1.000000000000000000, 0.000000000000000000, 0.000000000000000000 ) ) ;
#150 = EDGE_CURVE ( 'NONE', #333, #2, #271, .T. ) ;
#151 = APPROVAL_PERSON_ORGANIZATION ( #168, #46, #89 ) ;
#152 = APPLICATION_CONTEXT ( 'configuration controlled 3d designs of mechanical parts and assemblies' ) ;
#153 = FACE_BOUND ( 'NONE', #180, .T. ) ;
#154 = PERSON_AND_ORGANIZATION_ROLE ( 'creator' ) ;
#155 = CARTESIAN_POINT ( 'NONE',  ( -1.614212418857619014, 1.555301434917138433E-15, -12.69999999999999929 ) ) ;
#156 = FACE_OUTER_BOUND ( 'NONE', #48, .T. ) ;
#157 = CIRCLE ( 'NONE', #126, 12.69999999999999929 ) ;
#158 = PRODUCT_DEFINITION_SHAPE ( 'NONE', 'NONE',  #166 ) ;
#159 = CARTESIAN_POINT ( 'NONE',  ( 3.000000000000000000, 0.000000000000000000, 12.69999999999999929 ) ) ;
#160 = ORIENTED_EDGE ( 'NONE', *, *, #316, .F. ) ;
#161 = CARTESIAN_POINT ( 'NONE',  ( -3.000000000000000444, 1.224646799147353256E-15, -10.00000000000000000 ) ) ;
#162 = ORIENTED_EDGE ( 'NONE', *, *, #223, .T. ) ;
#163 = PLANE ( 'NONE',  #300 ) ;
#164 = COORDINATED_UNIVERSAL_TIME_OFFSET ( 8, 0, .AHEAD. ) ;
#165 = MANIFOLD_SOLID_BREP ( 'Ðý×', #58 ) ;
#166 = PRODUCT_DEFINITION ( 'UNKNOWN', '', #201, #237 ) ;
#167 = DIRECTION ( 'NONE',  ( -1.000000000000000000, -0.000000000000000000, -0.000000000000000000 ) ) ;
#168 = PERSON_AND_ORGANIZATION ( #230, #169 ) ;
#169 = ORGANIZATION ( 'UNSPECIFIED', 'UNSPECIFIED', '' ) ;
#170 = CYLINDRICAL_SURFACE ( 'NONE', #51, 10.00000000000000000 ) ;
#171 = ORIENTED_EDGE ( 'NONE', *, *, #112, .T. ) ;
#172 = COORDINATED_UNIVERSAL_TIME_OFFSET ( 8, 0, .AHEAD. ) ;
#173 = CARTESIAN_POINT ( 'NONE',  ( -1.614212418857619014, 1.224646799147353256E-15, -10.00000000000000000 ) ) ;
#174 = DIRECTION ( 'NONE',  ( 1.000000000000000000, 0.000000000000000000, 0.000000000000000000 ) ) ;
#175 = CARTESIAN_POINT ( 'NONE',  ( -1.614212418857619014, 0.000000000000000000, 10.00000000000000000 ) ) ;
#176 = FACE_OUTER_BOUND ( 'NONE', #267, .T. ) ;
#177 = PLANE ( 'NONE',  #115 ) ;
#178 = LINE ( 'NONE', #106, #121 ) ;
#179 = CARTESIAN_POINT ( 'NONE',  ( -3.000000000000000000, 0.000000000000000000, 12.69999999999999929 ) ) ;
#180 = EDGE_LOOP ( 'NONE', ( #137, #88 ) ) ;
#181 = ORIENTED_EDGE ( 'NONE', *, *, #246, .T. ) ;
#182 = PRODUCT ( 'Q-ZDWWP-R41-20-1064-SHM', 'Q-ZDWWP-R41-20-1064-SHM', '', ( #12 ) ) ;
#183 = PLANE ( 'NONE',  #28 ) ;
#184 = CC_DESIGN_DATE_AND_TIME_ASSIGNMENT ( #294, #11, ( #100 ) ) ;
#185 = ORIENTED_EDGE ( 'NONE', *, *, #150, .T. ) ;
#186 = ORIENTED_EDGE ( 'NONE', *, *, #223, .F. ) ;
#187 = ORIENTED_EDGE ( 'NONE', *, *, #37, .T. ) ;
#188 = PERSON_AND_ORGANIZATION_ROLE ( 'creator' ) ;
#189 = ORIENTED_EDGE ( 'NONE', *, *, #295, .F. ) ;
#190 = ORIENTED_EDGE ( 'NONE', *, *, #291, .F. ) ;
#191 = AXIS2_PLACEMENT_3D ( 'NONE', #113, #72, #138 ) ;
#192 = EDGE_CURVE ( 'NONE', #335, #205, #157, .T. ) ;
#193 = EDGE_LOOP ( 'NONE', ( #21, #143, #107, #181 ) ) ;
#194 = VECTOR ( 'NONE', #296, 1000.000000000000000 ) ;
#195 = CALENDAR_DATE ( 2020, 22, 12 ) ;
#196 = CARTESIAN_POINT ( 'NONE',  ( -2.500000000000000444, 0.000000000000000000, 10.00000000000000000 ) ) ;
#197 = ADVANCED_FACE ( 'NONE', ( #153, #322 ), #177, .F. ) ;
#198 = LINE ( 'NONE', #173, #194 ) ;
#199 = EDGE_CURVE ( 'NONE', #205, #308, #200, .T. ) ;
#200 = LINE ( 'NONE', #155, #92 ) ;
#201 = PRODUCT_DEFINITION_FORMATION_WITH_SPECIFIED_SOURCE ( 'ANY', '', #182, .NOT_KNOWN. ) ;
#202 = CC_DESIGN_APPROVAL ( #46, ( #100 ) ) ;
#203 = CARTESIAN_POINT ( 'NONE',  ( -2.500000000000000444, 10.00000000000000000, 0.000000000000000000 ) ) ;
#204 =( LENGTH_UNIT ( ) NAMED_UNIT ( * ) SI_UNIT ( .MILLI., .METRE. ) );
#205 = VERTEX_POINT ( 'NONE', #98 ) ;
#206 = DIRECTION ( 'NONE',  ( -1.000000000000000000, 0.000000000000000000, -0.000000000000000000 ) ) ;
#207 = CC_DESIGN_APPROVAL ( #105, ( #166 ) ) ;
#208 = FACE_OUTER_BOUND ( 'NONE', #331, .T. ) ;
#209 = COORDINATED_UNIVERSAL_TIME_OFFSET ( 8, 0, .AHEAD. ) ;
#210 = ORIENTED_EDGE ( 'NONE', *, *, #295, .T. ) ;
#211 = DATE_AND_TIME ( #34, #330 ) ;
#212 = CIRCLE ( 'NONE', #226, 10.00000000000000000 ) ;
#213 = DATE_AND_TIME ( #244, #64 ) ;
#214 = ORIENTED_EDGE ( 'NONE', *, *, #199, .T. ) ;
#215 = AXIS2_PLACEMENT_3D ( 'NONE', #125, #17, #269 ) ;
#216 = FACE_OUTER_BOUND ( 'NONE', #56, .T. ) ;
#217 = APPLICATION_PROTOCOL_DEFINITION ( 'international standard', 'config_control_design', 1994, #273 ) ;
#218 = ORIENTED_EDGE ( 'NONE', *, *, #291, .T. ) ;
#219 = ORIENTED_EDGE ( 'NONE', *, *, #62, .T. ) ;
#220 = DIRECTION ( 'NONE',  ( -1.000000000000000000, -0.000000000000000000, -0.000000000000000000 ) ) ;
#221 = PERSON_AND_ORGANIZATION_ROLE ( 'classification_officer' ) ;
#222 = CARTESIAN_POINT ( 'NONE',  ( -3.000000000000000000, 0.000000000000000000, 0.000000000000000000 ) ) ;
#223 = EDGE_CURVE ( 'NONE', #29, #239, #212, .T. ) ;
#224 = DIRECTION ( 'NONE',  ( 0.000000000000000000, 0.000000000000000000, 1.000000000000000000 ) ) ;
#225 = CARTESIAN_POINT ( 'NONE',  ( -1.614212418857619014, 0.000000000000000000, 0.000000000000000000 ) ) ;
#226 = AXIS2_PLACEMENT_3D ( 'NONE', #15, #174, #95 ) ;
#227 = CYLINDRICAL_SURFACE ( 'NONE', #191, 10.00000000000000000 ) ;
#228 = DIRECTION ( 'NONE',  ( 0.000000000000000000, 0.000000000000000000, 1.000000000000000000 ) ) ;
#229 = EDGE_LOOP ( 'NONE', ( #320, #210, #91, #104 ) ) ;
#230 = PERSON ( 'UNSPECIFIED', 'UNSPECIFIED', 'UNSPECIFIED', ('UNSPECIFIED'), ('UNSPECIFIED'), ('UNSPECIFIED') ) ;
#231 = EDGE_CURVE ( 'NONE', #29, #277, #99, .T. ) ;
#232 = DIRECTION ( 'NONE',  ( -1.000000000000000000, 0.000000000000000000, -0.000000000000000000 ) ) ;
#233 = DIRECTION ( 'NONE',  ( 0.000000000000000000, 0.000000000000000000, 1.000000000000000000 ) ) ;
#234 = ADVANCED_FACE ( 'NONE', ( #44 ), #299, .F. ) ;
#235 = AXIS2_PLACEMENT_3D ( 'NONE', #26, #53, #228 ) ;
#236 = CARTESIAN_POINT ( 'NONE',  ( -1.614212418857619014, 0.000000000000000000, 12.69999999999999929 ) ) ;
#237 = DESIGN_CONTEXT ( 'detailed design', #152, 'design' ) ;
#238 = DIRECTION ( 'NONE',  ( 1.000000000000000000, 0.000000000000000000, 0.000000000000000000 ) ) ;
#239 = VERTEX_POINT ( 'NONE', #196 ) ;
#240 = CC_DESIGN_APPROVAL ( #119, ( #201 ) ) ;
#241 = EDGE_CURVE ( 'NONE', #333, #24, #198, .T. ) ;
#242 = DIRECTION ( 'NONE',  ( 0.000000000000000000, 0.000000000000000000, 1.000000000000000000 ) ) ;
#243 = CARTESIAN_POINT ( 'NONE',  ( -3.000000000000000000, 10.00000000000000000, 0.000000000000000000 ) ) ;
#244 = CALENDAR_DATE ( 2020, 22, 12 ) ;
#245 = DIRECTION ( 'NONE',  ( -1.000000000000000000, -0.000000000000000000, -0.000000000000000000 ) ) ;
#246 = EDGE_CURVE ( 'NONE', #302, #24, #139, .T. ) ;
#247 = EDGE_CURVE ( 'NONE', #2, #302, #69, .T. ) ;
#248 = CYLINDRICAL_SURFACE ( 'NONE', #111, 10.00000000000000000 ) ;
#249 = ADVANCED_FACE ( 'NONE', ( #176 ), #76, .T. ) ;
#250 = CARTESIAN_POINT ( 'NONE',  ( -3.000000000000000000, 1.555301434917138433E-15, -12.69999999999999929 ) ) ;
#251 = DIRECTION ( 'NONE',  ( -0.000000000000000000, 0.000000000000000000, 1.000000000000000000 ) ) ;
#252 = ORIENTED_EDGE ( 'NONE', *, *, #40, .F. ) ;
#253 = CC_DESIGN_PERSON_AND_ORGANIZATION_ASSIGNMENT ( #317, #6, ( #182 ) ) ;
#254 = ORIENTED_EDGE ( 'NONE', *, *, #246, .F. ) ;
#255 = CARTESIAN_POINT ( 'NONE',  ( 2.500000000000000444, 10.00000000000000000, 0.000000000000000000 ) ) ;
#256 = ADVANCED_FACE ( 'NONE', ( #306 ), #227, .F. ) ;
#257 = AXIS2_PLACEMENT_3D ( 'NONE', #225, #18, #129 ) ;
#258 = PERSON_AND_ORGANIZATION ( #230, #169 ) ;
#259 = CARTESIAN_POINT ( 'NONE',  ( 2.500000000000000888, 1.224646799147353256E-15, -10.00000000000000000 ) ) ;
#260 = VECTOR ( 'NONE', #142, 1000.000000000000000 ) ;
#261 = ADVANCED_FACE ( 'NONE', ( #334 ), #136, .F. ) ;
#262 = DIRECTION ( 'NONE',  ( 0.000000000000000000, 0.000000000000000000, 1.000000000000000000 ) ) ;
#263 = UNCERTAINTY_MEASURE_WITH_UNIT (LENGTH_MEASURE( 1.000000000000000082E-05 ), #204, 'distance_accuracy_value', 'NONE');
#264 = PERSON_AND_ORGANIZATION ( #230, #169 ) ;
#265 = DIRECTION ( 'NONE',  ( -1.000000000000000000, -0.000000000000000000, -0.000000000000000000 ) ) ;
#266 = DIRECTION ( 'NONE',  ( -1.000000000000000000, -0.000000000000000000, -0.000000000000000000 ) ) ;
#267 = EDGE_LOOP ( 'NONE', ( #135, #214, #160, #252 ) ) ;
#268 = ADVANCED_FACE ( 'NONE', ( #208, #74 ), #183, .F. ) ;
#269 = DIRECTION ( 'NONE',  ( 0.000000000000000000, 0.000000000000000000, 1.000000000000000000 ) ) ;
#270 = CARTESIAN_POINT ( 'NONE',  ( -1.614212418857619014, 1.224646799147353256E-15, -10.00000000000000000 ) ) ;
#271 = CIRCLE ( 'NONE', #215, 10.00000000000000000 ) ;
#272 = CALENDAR_DATE ( 2020, 22, 12 ) ;
#273 = APPLICATION_CONTEXT ( 'configuration controlled 3d designs of mechanical parts and assemblies' ) ;
#274 = AXIS2_PLACEMENT_3D ( 'NONE', #298, #96, #127 ) ;
#275 = CARTESIAN_POINT ( 'NONE',  ( 2.500000000000000888, 0.000000000000000000, 10.00000000000000000 ) ) ;
#276 = DIRECTION ( 'NONE',  ( -1.000000000000000000, -0.000000000000000000, -0.000000000000000000 ) ) ;
#277 = VERTEX_POINT ( 'NONE', #161 ) ;
#278 = ORIENTED_EDGE ( 'NONE', *, *, #150, .F. ) ;
#279 = VERTEX_POINT ( 'NONE', #179 ) ;
#280 = LOCAL_TIME ( 17, 2, 23.00000000000000000, #325 ) ;
#281 = DIRECTION ( 'NONE',  ( 0.000000000000000000, 0.000000000000000000, 1.000000000000000000 ) ) ;
#282 = ORIENTED_EDGE ( 'NONE', *, *, #231, .F. ) ;
#283 = APPLICATION_PROTOCOL_DEFINITION ( 'international standard', 'config_control_design', 1994, #152 ) ;
#284 = CARTESIAN_POINT ( 'NONE',  ( 2.500000000000000888, 0.000000000000000000, 0.000000000000000000 ) ) ;
#285 = APPROVAL_DATE_TIME ( #211, #46 ) ;
#286 = EDGE_LOOP ( 'NONE', ( #27, #186 ) ) ;
#287 = LOCAL_TIME ( 17, 2, 23.00000000000000000, #209 ) ;
#288 = APPROVAL_DATE_TIME ( #79, #105 ) ;
#289 = EDGE_LOOP ( 'NONE', ( #116, #110 ) ) ;
#290 = CARTESIAN_POINT ( 'NONE',  ( -1.614212418857619014, 0.000000000000000000, 0.000000000000000000 ) ) ;
#291 = EDGE_CURVE ( 'NONE', #239, #35, #178, .T. ) ;
#292 = AXIS2_PLACEMENT_3D ( 'NONE', #16, #123, #293 ) ;
#293 = DIRECTION ( 'NONE',  ( 0.000000000000000000, 0.000000000000000000, 1.000000000000000000 ) ) ;
#294 = DATE_AND_TIME ( #195, #280 ) ;
#295 = EDGE_CURVE ( 'NONE', #205, #335, #7, .T. ) ;
#296 = DIRECTION ( 'NONE',  ( -1.000000000000000000, -0.000000000000000000, -0.000000000000000000 ) ) ;
#297 = CC_DESIGN_PERSON_AND_ORGANIZATION_ASSIGNMENT ( #117, #221, ( #100 ) ) ;
#298 = CARTESIAN_POINT ( 'NONE',  ( -1.614212418857619014, 0.000000000000000000, 0.000000000000000000 ) ) ;
#299 = CYLINDRICAL_SURFACE ( 'NONE', #274, 10.00000000000000000 ) ;
#300 = AXIS2_PLACEMENT_3D ( 'NONE', #203, #1, #4 ) ;
#301 = CIRCLE ( 'NONE', #103, 10.00000000000000000 ) ;
#302 = VERTEX_POINT ( 'NONE', #275 ) ;
#303 = ORIENTED_EDGE ( 'NONE', *, *, #247, .F. ) ;
#304 = DIRECTION ( 'NONE',  ( 0.000000000000000000, 0.000000000000000000, 1.000000000000000000 ) ) ;
#305 = ADVANCED_BREP_SHAPE_REPRESENTATION ( 'Q-ZDWWP-R41-20-1064-SHM', ( #165, #326 ), #145 ) ;
#306 = FACE_OUTER_BOUND ( 'NONE', #193, .T. ) ;
#307 = DATE_TIME_ROLE ( 'creation_date' ) ;
#308 = VERTEX_POINT ( 'NONE', #250 ) ;
#309 = CALENDAR_DATE ( 2020, 22, 12 ) ;
#310 = ORIENTED_EDGE ( 'NONE', *, *, #37, .F. ) ;
#311 = EDGE_CURVE ( 'NONE', #2, #333, #50, .T. ) ;
#312 = VECTOR ( 'NONE', #70, 1000.000000000000000 ) ;
#313 = APPROVAL_DATE_TIME ( #80, #119 ) ;
#314 = EDGE_LOOP ( 'NONE', ( #254, #310 ) ) ;
#315 = CC_DESIGN_PERSON_AND_ORGANIZATION_ASSIGNMENT ( #68, #154, ( #166 ) ) ;
#316 = EDGE_CURVE ( 'NONE', #279, #308, #57, .T. ) ;
#317 = PERSON_AND_ORGANIZATION ( #230, #169 ) ;
#318 = ORIENTED_EDGE ( 'NONE', *, *, #42, .T. ) ;
#319 = AXIS2_PLACEMENT_3D ( 'NONE', #255, #232, #251 ) ;
#320 = ORIENTED_EDGE ( 'NONE', *, *, #199, .F. ) ;
#321 = CC_DESIGN_PERSON_AND_ORGANIZATION_ASSIGNMENT ( #264, #144, ( #201 ) ) ;
#322 = FACE_OUTER_BOUND ( 'NONE', #289, .T. ) ;
#323 = ADVANCED_FACE ( 'NONE', ( #23 ), #163, .F. ) ;
#324 = DIRECTION ( 'NONE',  ( 0.000000000000000000, 0.000000000000000000, 1.000000000000000000 ) ) ;
#325 = COORDINATED_UNIVERSAL_TIME_OFFSET ( 8, 0, .AHEAD. ) ;
#326 = AXIS2_PLACEMENT_3D ( 'NONE', #124, #281, #238 ) ;
#327 = DIRECTION ( 'NONE',  ( -1.000000000000000000, -0.000000000000000000, -0.000000000000000000 ) ) ;
#328 = DIRECTION ( 'NONE',  ( 1.000000000000000000, 0.000000000000000000, 0.000000000000000000 ) ) ;
#329 = CARTESIAN_POINT ( 'NONE',  ( 2.999999999999999112, 0.000000000000000000, 0.000000000000000000 ) ) ;
#330 = LOCAL_TIME ( 17, 2, 23.00000000000000000, #172 ) ;
#331 = EDGE_LOOP ( 'NONE', ( #94, #189 ) ) ;
#332 = DIRECTION ( 'NONE',  ( 0.000000000000000000, 0.000000000000000000, 1.000000000000000000 ) ) ;
#333 = VERTEX_POINT ( 'NONE', #47 ) ;
#334 = FACE_OUTER_BOUND ( 'NONE', #314, .T. ) ;
#335 = VERTEX_POINT ( 'NONE', #159 ) ;
ENDSEC;
END-ISO-10303-21;
